  0
SECTION
  2
HEADER
  9
$ACADVER
  1
AC1009
  9
$INSBASE
 10
0.0
 20
0.0
 30
0.0
  9
$EXTMIN
 10
0.0
 20
0.0
 30
0.0
  9
$EXTMAX
 10
0.0
 20
0.0
 30
0.0
  0
ENDSEC
  0
SECTION
  2
TABLES
  0
TABLE
  2
VPORT
 70
0
  0
ENDTAB
  0
TABLE
  2
LTYPE
 70
1
  0
LTYPE
  2
CONTINUOUS
 70
0
  3
Solid line
 72
65
 73
0
 40
0.0
  0
ENDTAB
  0
TABLE
  2
LAYER
 70
1
  0
LAYER
  2
0
 70
64
 62
7
  6
continuous
  0
ENDTAB
  0
TABLE
  2
STYLE
 70
1
  0
STYLE
  2
STANDARD
 70
0
 40
0
 41
1.0
 50
0.0
 71
0
 42
1
 3
ARIAL.TTF
 4

  0
ENDTAB
  0
TABLE
  2
VIEW
 70
0
  0
ENDTAB
  0
ENDSEC
  0
SECTION
  2
BLOCKS
  0
BLOCK
  8
0
  2
UNFOLD
 70
0
 10
0.0
 20
0.0
 30
0.0
  3
UNFOLD
  0
ARC
  8
0
 62
0
 10
-67.0
 20
-15.5
 30
0.0
 40
3.0
 50
-0.0
 51
90.0
  0
LINE
  8
0
 62
0
 10
-64.0
 20
-39.5
 30
0.0
 11
-64.0
 21
-15.5
 31
0.0
  0
ARC
  8
0
 62
0
 10
-67.0
 20
-39.5
 30
0.0
 40
3.0
 50
-90.0
 51
-0.0
  0
LINE
  8
0
 62
0
 10
-67.0
 20
-12.5
 30
0.0
 11
-78.7804199905
 21
-12.5
 31
0.0
  0
LINE
  8
0
 62
0
 10
-78.7804199905
 20
-42.5
 30
0.0
 11
-67.0
 21
-42.5
 31
0.0
  0
LINE
  8
0
 62
0
 10
-78.7804199905
 20
-42.5
 30
0.0
 11
-81.2804199905
 21
-45.0
 31
0.0
  0
LINE
  8
0
 62
0
 10
-81.2804199905
 20
-65.0
 30
0.0
 11
-81.2804199905
 21
-45.0
 31
0.0
  0
LINE
  8
0
 62
0
 10
-78.7804199905
 20
-67.5
 30
0.0
 11
-81.2804199905
 21
-65.0
 31
0.0
  0
LINE
  8
0
 62
0
 10
78.7804199905
 20
-67.5
 30
0.0
 11
-78.7804199905
 21
-67.5
 31
0.0
  0
LINE
  8
0
 62
0
 10
78.7804199905
 20
-67.5
 30
0.0
 11
81.2804199905
 21
-65.0
 31
0.0
  0
LINE
  8
0
 62
0
 10
81.2804199905
 20
-65.0
 30
0.0
 11
81.2804199905
 21
-45.0
 31
0.0
  0
LINE
  8
0
 62
0
 10
78.7804199905
 20
-42.5
 30
0.0
 11
81.2804199905
 21
-45.0
 31
0.0
  0
LINE
  8
0
 62
0
 10
78.7804199905
 20
-42.5
 30
0.0
 11
67.0
 21
-42.5
 31
0.0
  0
ARC
  8
0
 62
0
 10
67.0
 20
-39.5
 30
0.0
 40
3.0
 50
-180.0
 51
-90.0
  0
LINE
  8
0
 62
0
 10
64.0
 20
-39.5
 30
0.0
 11
64.0
 21
-15.5
 31
0.0
  0
ARC
  8
0
 62
0
 10
67.0
 20
-15.5
 30
0.0
 40
3.0
 50
90.0
 51
-180.0
  0
LINE
  8
0
 62
0
 10
67.0
 20
-12.5
 30
0.0
 11
78.7804199905
 21
-12.5
 31
0.0
  0
LINE
  8
0
 62
0
 10
78.7804199905
 20
-12.5
 30
0.0
 11
81.2804199905
 21
-10.0
 31
0.0
  0
LINE
  8
0
 62
0
 10
81.2804199905
 20
-10.0
 30
0.0
 11
81.2804199905
 21
10.0
 31
0.0
  0
LINE
  8
0
 62
0
 10
78.7804199905
 20
12.5
 30
0.0
 11
81.2804199905
 21
10.0
 31
0.0
  0
LINE
  8
0
 62
0
 10
78.7804199905
 20
12.5
 30
0.0
 11
67.0
 21
12.5
 31
0.0
  0
ARC
  8
0
 62
0
 10
67.0
 20
15.5
 30
0.0
 40
3.0
 50
-180.0
 51
-90.0
  0
LINE
  8
0
 62
0
 10
64.0
 20
15.5
 30
0.0
 11
64.0
 21
39.5
 31
0.0
  0
ARC
  8
0
 62
0
 10
67.0
 20
39.5
 30
0.0
 40
3.0
 50
90.0
 51
-180.0
  0
LINE
  8
0
 62
0
 10
67.0
 20
42.5
 30
0.0
 11
78.7804199905
 21
42.5
 31
0.0
  0
LINE
  8
0
 62
0
 10
78.7804199905
 20
42.5
 30
0.0
 11
81.2804199905
 21
45.0
 31
0.0
  0
LINE
  8
0
 62
0
 10
81.2804199905
 20
45.0
 30
0.0
 11
81.2804199905
 21
65.0
 31
0.0
  0
LINE
  8
0
 62
0
 10
81.2804199905
 20
65.0
 30
0.0
 11
78.7804199905
 21
67.5
 31
0.0
  0
LINE
  8
0
 62
0
 10
78.7804199905
 20
67.5
 30
0.0
 11
-78.7804199905
 21
67.5
 31
0.0
  0
LINE
  8
0
 62
0
 10
-78.7804199905
 20
67.5
 30
0.0
 11
-81.2804199905
 21
65.0
 31
0.0
  0
LINE
  8
0
 62
0
 10
-81.2804199905
 20
45.0
 30
0.0
 11
-81.2804199905
 21
65.0
 31
0.0
  0
LINE
  8
0
 62
0
 10
-78.7804199905
 20
42.5
 30
0.0
 11
-81.2804199905
 21
45.0
 31
0.0
  0
LINE
  8
0
 62
0
 10
-67.0
 20
42.5
 30
0.0
 11
-78.7804199905
 21
42.5
 31
0.0
  0
ARC
  8
0
 62
0
 10
-67.0
 20
39.5
 30
0.0
 40
3.0
 50
-0.0
 51
90.0
  0
LINE
  8
0
 62
0
 10
-64.0
 20
15.5
 30
0.0
 11
-64.0
 21
39.5
 31
0.0
  0
ARC
  8
0
 62
0
 10
-67.0
 20
15.5
 30
0.0
 40
3.0
 50
-90.0
 51
-0.0
  0
LINE
  8
0
 62
0
 10
-78.7804199905
 20
12.5
 30
0.0
 11
-67.0
 21
12.5
 31
0.0
  0
LINE
  8
0
 62
0
 10
-78.7804199905
 20
12.5
 30
0.0
 11
-81.2804199905
 21
10.0
 31
0.0
  0
LINE
  8
0
 62
0
 10
-81.2804199905
 20
-10.0
 30
0.0
 11
-81.2804199905
 21
10.0
 31
0.0
  0
LINE
  8
0
 62
0
 10
-78.7804199905
 20
-12.5
 30
0.0
 11
-81.2804199905
 21
-10.0
 31
0.0
  0
CIRCLE
  8
0
 62
0
 10
15.0
 20
-8.5
 30
0.0
 40
22.0
  0
CIRCLE
  8
0
 62
0
 10
-40.0
 20
39.5
 30
0.0
 40
10.0
  0
CIRCLE
  8
0
 62
0
 10
0.0
 20
60.0
 30
0.0
 40
2.1
  0
CIRCLE
  8
0
 62
0
 10
0.0
 20
-60.0
 30
0.0
 40
2.1
  0
CIRCLE
  8
0
 62
0
 10
60.0
 20
0.0
 30
0.0
 40
2.1
  0
CIRCLE
  8
0
 62
0
 10
-60.0
 20
0.0
 30
0.0
 40
2.1
  0
CIRCLE
  8
0
 62
0
 10
-75.2804199905
 20
-60.0
 30
0.0
 40
1.2
  0
CIRCLE
  8
0
 62
0
 10
75.2804199905
 20
-60.0
 30
0.0
 40
1.2
  0
CIRCLE
  8
0
 62
0
 10
75.2804199905
 20
60.0
 30
0.0
 40
1.2
  0
CIRCLE
  8
0
 62
0
 10
-75.2804199905
 20
60.0
 30
0.0
 40
1.2
  0
CIRCLE
  8
0
 62
0
 10
-75.2804199905
 20
6.55043e-12
 30
0.0
 40
1.2
  0
CIRCLE
  8
0
 62
0
 10
75.2804199905
 20
-9.24139e-12
 30
0.0
 40
1.2
  0
ENDBLK
  0
ENDSEC
  0
SECTION
  2
ENTITIES
  0
INSERT
  2
UNFOLD
  8
0
 62
0
 10
0.0
 20
0.0
 30
0.0
  0
ENDSEC
  0
EOF
